annis blogSchwebebahn Sarah Bettens
  Startseite
  Über...
  Archiv
  Sarah Bettens
  Tabs
  Chords
  Kate Moennig
  My Stars
  Songtexte
  Schöne Links
  Zitate
  Kontakt
 


 
Links
   sarah bettens
   kate moennig
   k's choice (deutsch)
   k's choice
   bellas blog
   marinas blog
   blog meiner sis
   witzige seite
   still-noa

Schwebebahn


http://myblog.de/schmanky89

Gratis bloggen bei
myblog.de





 
TABS

I made a new site for my favourite tabs, because they're way longer than the chords, they areN'T chords anyway and...well they deserve an own site

Important Note:
I didn't change those tabs - I just copied them - but I know shadowman isn't right that way at all and because I don't have "Courier New" as text-style the formation isn't good - but if you want to use it, just copy it into "Word", mark the text and choose "Courier New" and if you listen carefully you will notice the mistakes at "shadwoman" like it's written down easily and you will find out what part to repeat!


All by K's Choice
(Capo on 2nd fret)

verse1 :
---------

e|------------------------------------------|
B|------3---------3---------3---------3-----|
G|----0---0-----0---0-----0---0-----0---0---|
D|--2---------2---------0-------------------|
A|-------------------------------3----------|
G|------------------------------------------|
Is there anything you want from me

e|------------------------------------------|
B|------3---------3---------3---------3-----|
G|----0---0-----0---0-----0---0-----0---0---|
D|--2---------2---------0-------------------|
A|-------------------------------3----------|
G|------------------------------------------|
My arms my life my energy

e|------------------------------------------|
B|------3---------3---------3---------3-----|
G|----0---0-----0---0-----0---0-----0---0---|
D|------------------------------------------|
A|--2---------3---------2---------3---------|
E|------------------------------------------|
I don't know how far I can go

e|------------------------------------------|
B|------3---------3---------3---------3-----|
G|----0---0-----0---0-----0---0-----0---0---|
D|--2---------2---------0-------------------|
A|-------------------------------3----------|
G|------------------------------------------|
And everything says no

e|------------------------------------------|
B|------3---------3---------3---------3-----|
G|----0---0-----0---0-----0---0-----0---0---|
D|--2---------2---------0-------------------|
A|-------------------------------3----------|
G|------------------------------------------|
But you know how it

e|------------------------------------------|
B|------3---------3---------3---------3-----|
G|----0---0-----0---0-----0---0-----0---0---|
D|------------------------------------------|
A|--2---------3---------2---------3---------|
E|------------------------------------------|
goes when you're used to your

e|------------------------------------------|
B|------3---------3---------2---------2h3---|
G|----0---0-----0---0-----0---------0-------|
D|------------------------------------------|
A|--1---------1---------0---------0---------|
E|------------------------------------------|
side of the bed

e|------------------------------------------|
B|------3---------3---------3---------3-----|
G|----0---0-----0---0-----0---0-----0---0---|
D|--2---------2---------3---------3---------|
A|------------------------------------------|
E|------------------------------------------|
And I know you don't be-

e|------------------------------------------|
B|------1---------1---------1---------1-----|
G|----0---0-----0---0-----0---0-----0---0---|
D|--2---------2---------1---------1---------|
A|------------------------------------------|
E|------------------------------------------|
long in this room But you're

e|------------------------------------------|
B|------0---------0---------0---------0-----|
G|----0---0-----0---0-----0---0-----0---0---|
D|------------------------------------------|
A|--5---------5---------4---------4---------|
E|------------------------------------------|
here now so what can I

e|------------------------------------------|
B|------1---------1---------1----------3----|
G|----0---0-----0---0-----0---0------0----0-|
D|------------------------------------------|
A|--3---------3---------3---------3/5-------|
E|------------------------------------------|
do


refrain 1:
----------
G D
e|-----------------|-----------------|
B|-----0-------0---|-----3-------3---|
G|---0---0---0---0-|---2---2---2---2-|
D|-----------------|-----------------|
A|-----------------|-----------------|
E|-3-------3-------|-2-------2-------|
All that I am is

Em C
e|-----------------|-----------------|
B|-----0-------0---|-----1-------1---|
G|---0---0---0---0-|---0---0---0---0-|
D|-----------------|-----------------|
A|-----------------|-3-------3-------|
E|-0-------0-------|-----------------|
all I was taught to be

A F#m
e|-----------------|-----------------|
B|-----0-------0---|-----0-------0---|
G|---0---0---0---0-|---0---0---0---0-|
D|-----------------|-----------------|
A|-----------------|-----------------|
E|-3-------3-------|-0-------0-------|
All that you are is a

D/B D/C# D A/D D
e|-----------------|-----------------|---------------|
B|-----1-------1---|-----1-------0---|---------------|
G|---0---0---0---0-|---0---0---0---0-|---------------|
D|-----------------|-----------------|---------------|
A|-0-------2-------|-3-------3-------|-3-------------|
E|-----------------|-----------------|---------------|
wall between myself And me


Bridge :
--------

e|------------------------------------------|
B|------3---------3---------3---------3-----|
G|----0---0-----0---0-----0---0-----0---0---|
D|--2---------2---------0-------------------|
A|-------------------------------3----------|
G|------------------------------------------|

e|------------------------------------------|
B|------3---------3---------3---------3-----|
G|----0---0-----0---0-----0---0-----0---0---|
D|--2---------2---------0-------------------|
A|-------------------------------3----------|
G|------------------------------------------|

verse 2 :
---------

e|------------------------------------------|
B|------3---------3---------3---------3-----|
G|----0---0-----0---0-----0---0-----0---0---|
D|--2---------2---------0-------------------|
A|-------------------------------3----------|
G|------------------------------------------|
Have you ever really looked at me

e|------------------------------------------|
B|------3---------3---------3---------3-----|
G|----0---0-----0---0-----0---0-----0---0---|
D|--2---------2---------0-------------------|
A|-------------------------------3----------|
G|------------------------------------------|
Or thaught about me secretly

e|------------------------------------------|
B|------3---------3---------3---------3-----|
G|----0---0-----0---0-----0---0-----0---0---|
D|------------------------------------------|
A|--2---------3---------2---------3---------|
E|------------------------------------------|
do I make you wonder at all

e|------------------------------------------|
B|------3---------3---------3---------3-----|
G|----0---0-----0---0-----0---0-----0---0---|
D|--2---------2---------0-------------------|
A|-------------------------------3----------|
G|------------------------------------------|
About the speed of light

e|------------------------------------------|
B|------3---------3---------3---------3-----|
G|----0---0-----0---0-----0---0-----0---0---|
D|--2---------2---------0-------------------|
A|-------------------------------3----------|
G|------------------------------------------|
outsight our little world we might not

e|------------------------------------------|
B|------3---------3---------3---------3-----|
G|----0---0-----0---0-----0---0-----0---0---|
D|------------------------------------------|
A|--2---------3---------2---------3---------|
E|------------------------------------------|
feel so alone

e|------------------------------------------|
B|------3---------3---------3---------3-----|
G|----0---0-----0---0-----0---0-----0---0---|
D|--2---------2---------3---------3---------|
A|------------------------------------------|
E|------------------------------------------|
And I know you don't be-

e|------------------------------------------|
B|------1---------1---------1---------1-----|
G|----0---0-----0---0-----0---0-----0---0---|
D|--2---------2---------1---------1---------|
A|------------------------------------------|
E|------------------------------------------|
long in this room But you're

e|------------------------------------------|
B|------0---------0---------0---------0-----|
G|----0---0-----0---0-----0---0-----0---0---|
D|------------------------------------------|
A|--5---------5---------4---------4---------|
E|------------------------------------------|
here now so what can I

e|------------------------------------------|
B|------1---------1---------1----------3----|
G|----0---0-----0---0-----0---0------0----0-|
D|------------------------------------------|
A|--3---------3---------3---------3/5-------|
E|------------------------------------------|
do

ref 2:
------
G D
e|-----------------|-----------------|
B|-----0-------0---|-----3-------3---|
G|---0---0---0---0-|---2---2---2---2-|
D|-----------------|-----------------|
A|-----------------|-----------------|
E|-3-------3-------|-2-------2-------|
All that I am is

Em C
e|-----------------|-----------------|
B|-----0-------0---|-----1-------1---|
G|---0---0---0---0-|---0---0---0---0-|
D|-----------------|-----------------|
A|-----------------|-3-------3-------|
E|-0-------0-------|-----------------|
all I was taught to be

A F#m
e|-----------------|-----------------|
B|-----0-------0---|-----0-------0---|
G|---0---0---0---0-|---0---0---0---0-|
D|-----------------|-----------------|
A|-----------------|-----------------|
E|-3-------3-------|-0-------0-------|
All that you are is a

D/B D/C# D A/D D
e|-----------------|--------------------|
B|-----1-------1---|-----1---------3----|
G|---0---0---0---0-|---0---0-----0---0--|
D|-----------------|--------------------|
A|-0-------2-------|-3---------5--------|
E|-----------------|--------------------|
wall between myself And me

G D
e|-----------------|-----------------|
B|-----0-------0---|-----3-------3---|
G|---0---0---0---0-|---2---2---2---2-|
D|-----------------|-----------------|
A|-----------------|-----------------|
E|-3-------3-------|-2-------2-------|
All that I am is

Em C
e|-----------------|-----------------|
B|-----0-------0---|-----1-------1---|
G|---0---0---0---0-|---0---0---0---0-|
D|-----------------|-----------------|
A|-----------------|-3-------3-------|
E|-0-------0-------|-----------------|
all I was taught to be

A F#m
e|-----------------|-----------------|
B|-----0-------0---|-----0-------0---|
G|---0---0---0---0-|---0---0---0---0-|
D|-----------------|-----------------|
A|-----------------|-----------------|
E|-3-------3-------|-0-------0-------|
All that you are is a

D/B D/C# D A/D D
e|-----------------|-----------------|---------------|
B|-----1-------1---|-----1-------0---|---------------|
G|---0---0---0---0-|---0---0---0---0-|---------------|
D|-----------------|-----------------|---------------|
A|-0-------2-------|-3-------3-------|-3-------------|
E|-----------------|-----------------|---------------|
wall between myself And me


outro:
---------

e|------------------------------------------|
B|------3---------3---------3---------3-----|
G|----0---0-----0---0-----0---0-----0---0---|
D|--2---------2---------0-------------------|
A|-------------------------------3----------|
G|------------------------------------------|

e|------------------------------------------|
B|------3---------3---------3---------3-----|
G|----0---0-----0---0-----0---0-----0---0---|
D|--2---------2---------0-------------------|
A|-------------------------------3----------|
G|------------------------------------------|

akkoord : Em



Shadowman by K's Choice
(Capo on 4th fret)

Intro:
|---------------------------------------------------------|
|-----5-------5-------5-------5-------5-------5-------5-4-|
|---------------------------------------------------------|
|---6---6---6---6---7---7---4---4---4---4---4---4---4-----|
|-4-------4-------4---------------------------------------|
|-------------------------7-------7-------6-------6-------|


|-------------------------------------------------------5-|
|-----5-------5-------5-------5-------5-------5-------5---|
|---------------------------------------------------------|
|---6---6---6---6---7---7---4---4---4---4---4---4---4-----|
|-4-------4-------4---------------------------------------|
|-------------------------7-------7-------6-------6-------|


|---------------------------------------------------------|
|-----5-------5-------5-------5-------5-------5-------5---|
|---------------------------------------------------------|
|---6---6---6---6---7---7---4---4---4---4---4---4---4---4-|
|-4-------4-------4---------------------------------------|
|-------------------------7-------7-------6-------6-------|


|-----------------------------------------------------------|
|-------------------------------------5-------4-------------|
|-------4-------4-------4-------4---------------------6-----|
|-----4-------4-------4-------4-----6---6---6---6---6---6---|
|---7-------7-------9-------9-----4-------4-------4-------4-|
|-5-------5-------7-------7---------------------------------|

Verse:
||----------------------------------------------------------|
||*-----5-------5-------5-------5-------5-------5-------5-4-|
||----------------------------------------------------------|
||----6---6---6---6---7---7---4---4---4---4---4---4---4-----|
||*-4-------4-------4---------------------------------------|
||--------------------------7-------7-------6-------6-------|


|-------------------------------------------------------5-|
|-----5-------5-------5-------5-------5-------5-------5---|
|---------------------------------------------------------|
|---6---6---6---6---7---7---4---4---4---4---4---4---4-----|
|-4-------4-------4---------------------------------------|
|-------------------------7-------7-------6-------6-------|


|---------------------------------------------------------|
|-----5-------5-------5-------5-------5-------5-------5---|
|---------------------------------------------------------|
|---6---6---6---6---7---7---4---4---4---4---4---4---4---4-|
|-4-------4-------4---------------------------------------|
|-------------------------7-------7-------6-------6-------|

1
__________
|
|------------------------------------------------------------||
|-------------------------------------5-------4-------------*||
|-------4-------4-------4-------4---------------------6------||
|-----4-------4-------4-------4-----6---6---6---6---6---6----||
|---7-------7-------9-------9-----4-------4-------4-------4-*||
|-5-------5-------7-------7----------------------------------||

2
_________________
|
|------------------|
|------------------|
|-----6-------4----|
|---6---6---4---4--|
|-4-------6--------|
|------------------|

Chorus:
||-------------------------------------------------------------------------||
||--------------------------------------------5--------5---------7--------*||
||------4---------4---------4-------4-------6--------6---------6---6---4---||
||---10---10---10---10----9---9---9---9---6--------6---------4-------4-----||
||-7---------7----------7-------6-------4------------------4--------------*||
||-----------------------------------------------7-------6-----------------||

|--------------------------------------------------------------------|
|------------------------------------------7-------------------------|
|-------4--------4-------4-------4-------6---6---4-------4-------4---|
|-----4--------4-------4-------4-------4-------4-------4-------4-----|
|---7--------7-------9-------9-------4---------------7-------9-------|
|-5--------5-------7-------7-------6---------------5-------7---------|

|---------------------------------------------------------|
|-----5-------5-------5-------5-------5-------5-------5-4-|
|---------------------------------------------------------|
|---6---6---6---6---7---7---4---4---4---4---4---4---4-----|
|-4-------4-------4---------------------------------------|
|-------------------------7-------7-------6-------6-------|


|-------------------------------------------------------5-|
|-----5-------5-------5-------5-------5-------5-------5---|
|---------------------------------------------------------|
|---6---6---6---6---7---7---4---4---4---4---4---4---4-----|
|-4-------4-------4---------------------------------------|
|-------------------------7-------7-------6-------6-------|

verse:
|----------------------------------------------------------|
|------5-------5-------5-------5-------5-------5-------5-4-|
|----------------------------------------------------------|
|----6---6---6---6---7---7---4---4---4---4---4---4---4-----|
|--4-------4-------4---------------------------------------|
|--------------------------7-------7-------6-------6-------|


|-------------------------------------------------------5-|
|-----5-------5-------5-------5-------5-------5-------5---|
|---------------------------------------------------------|
|---6---6---6---6---7---7---4---4---4---4---4---4---4-----|
|-4-------4-------4---------------------------------------|
|-------------------------7-------7-------6-------6-------|


|---------------------------------------------------------|
|-----5-------5-------5-------5-------5-------5-------5---|
|---------------------------------------------------------|
|---6---6---6---6---7---7---4---4---4---4---4---4---4---4-|
|-4-------4-------4---------------------------------------|
|-------------------------7-------7-------6-------6-------|


|------------------------------------------------------------|
|-------------------------------------5-------4--------------|
|-------4-------4-------4-------4---------------------6------|
|-----4-------4-------4-------4-----6---6---6---6---6---6----|
|---7-------7-------9-------9-----4-------4-------4-------4--|
|-5-------5-------7-------7----------------------------------|


|---------------------------------------------------------|
|-----5-------5-------5-------5-------5-------5-------5-4-|
|---------------------------------------------------------|
|---6---6---6---6---7---7---4---4---4---4---4---4---4-----|
|-4-------4-------4---------------------------------------|
|-------------------------7-------7-------6-------6-------|


|-------------------------------------------------------5-|
|-----5-------5-------5-------5-------5-------5-------5---|
|---------------------------------------------------------|
|---6---6---6---6---7---7---4---4---4---4---4---4---4-----|
|-4-------4-------4---------------------------------------|
|-------------------------7-------7-------6-------6-------|


|---------------------------------------------------------|
|-----5-------5-------5-------5-------5-------5-------5---|
|---------------------------------------------------------|
|---6---6---6---6---7---7---4---4---4---4---4---4---4---4-|
|-4-------4-------4---------------------------------------|
|-------------------------7-------7-------6-------6-------|


|---------------------------------|
|---------------------------------|
|-------4-------4-------4-------4-|
|-----4-------4-------4-------4---|
|---7-------7-------9-------9-----|
|-5-------5-------7-------7-------|


bridge:
||-----------------------------------------------------------------|
||*-----------------------5-------5-------5-------5------4-------4-|
||------4-------4-------4-------4-------4-------4------4-------4---|
||*---7---7---7---7---6-------6-------4-------4------4-------4-----|
||--7-------7-------7-------7--------------------------------------|
||----------------------------------7-------7-------7------7-------|


|-------5-------5-------4-------4-------4-------4-------4---||
|-----7-------7-------7-------5-------5-------7-------7----*||
|---6-------6-------6-------4-------4-------4-------4-------||
|-4-------4-------4-------6-------7-------9-------9---------||
|----------------------------------------------------------*||
|-----------------------------------------------------------||


|-------4-------4-------4-------4-|
|-----5-------5-------5-------7---|
|---4-------4-------4-------4-----|
|-6-------6-------7-------9-------|
|---------------------------------|
|---------------------------------|


|---------------------------------------------------------|
|-----5-------5-------5-------5-------5-------5-------5---|
|---------------------------------------------------------|
|---6---6---6---6---7---7---4---4---4---4---4---4---4---4-|
|-4-------4-------4---------------------------------------|
|-------------------------7-------7-------6-------6-------|


|---------------------------------------------------------|
|-----5-------5-------5-------5-------5-------5-------5---|
|---------------------------------------------------------|
|---6---6---6---6---7---7---4---4---4---4---4---4---4---4-|
|-4-------4-------4---------------------------------------|
|-------------------------7-------7-------6-------6-------|


|-----------------------------------------------------------------|
|-----------------------------------------------------------------|
|-------4-------4-------4-------4---------4-------------4-------4-|
|-----4-------4-------4-------4-------8-----8---8-----4-------4---|
|---7-------7-------9-------9-------6---6-----6-----7-------9-----|
|-5-------5-------7-------7-------4---------------5-------7-------|


Chorus:
||-------------------------------------------------------------------------||
||--------------------------------------------5--------5---------7--------*||
||------4---------4---------4-------4-------6--------6---------6---6---4---||
||---10---10---10---10----9---9---9---9---6--------6---------4-------4-----||
||-7---------7----------7-------6-------4------------------4--------------*||
||-----------------------------------------------7-------6-----------------||

|--------------------------------------------------------------------|
|------------------------------------------7-------------------------|
|-------4--------4-------4-------4-------6---6---4-------4-------4---|
|-----4--------4-------4-------4-------4-------4-------4-------4-----|
|---7--------7-------9-------9-------4---------------7-------9-------|
|-5--------5-------7-------7-------6---------------5-------7---------|


|-----------------------------|
|------5--------4-------------|
|-----------------------6-----|
|---6----6---6----6---6---6---|
|-4--------4--------4-------4-|
|-----------------------------|

Acoustic Part:

| Am | Dsus2 | F | Am E|


Lyrics:

Any time tomorrow I will lie and say I'm fine
I'll say yes when I mean no
And anytime tomorrow, the sun will seize to shine
there's a shadowman who told me so

Any time tomorrow the rain will play a part
of the play I used to know
Like no other used to know it all by heart
will the shadowman inside us let it go?

Oh no, let go of my hand
Oh no, not now I'm not my friend
You came to me and knew, or was it me who came to you
Shadowman
Shadowman

Any time tomorrow a part of me will die
and a new one will be born
Any time tomorrow I'll get sick of asking why
sick of all the darkness I have numb

Any time tomorrow I will try to do what's right
making sense of all I can
And any time tomorrow I'll pretend to see the light
I just might
Shadowman

Oh here's the sun again
isn't that appealing to recline
Get blinded into gold
into the light again
And doesn't it make you said to see so much love tonight
See nothing of the shadowman inside

Ooh oh oh, let go of my hand
Oh no, not now I'm not my friend
You came to me and knew, or was it me who came to you
Shadowman
Shadowman

Ooh, if you're coming down to rescue me
Now'd be perfect
Please, if you're coming down to rescue me
Now'd be perfect
Please, if you're coming down to rescue me
Now'd be perfect
...



Verantwortlich für die Inhalte ist der Autor. Dein kostenloses Blog bei myblog.de! Datenschutzerklärung
Werbung